Sweet Home Chicago (Blues Brothers)

Pour compléter notre cycle Blues, aujourd’hui je propose de voir « Sweet Home Chicago » comme interprétée dans le film « Blues Brothers ».

Le format de la chanson va répéter une grille de Blues en Mi (dans ce cas, c’est la 3ème variation vu sur l’article sur la progression des accords Blues).

Variation : Blues Mi
Mi La Mi Mi
La La Mi Mi
Si La Mi Si

Bien sûr, on ne va pas encore jouer comme Donald « Duck » Dunn alors je propose une version simplifiée comme base de travail. Après, libre d’agrémenter avec notre boite et les Turn Around.

Grille normale et des solos

  E              A              E              E
|---------------|---------0---2-|---------------|---------------|
|---------0---2-|-----2---------|---------0---2-|-----2---0-----|
|-----2---------|-0-------------|-----2---------|-------------2-|
|-0-------------|---------------|-0-------------|-0-------------|

  A              A              E              E
|---------0---2-|-----2---0-----|---------------|---------------|
|-----2---------|-------------2-|---------0---2-|-2---0---------|
|-0-------------|-0-------------|-----2---------|---------2-----|
|---------------|---------------|-0-------------|-------------0-|

  B              A              E              B
|---------------|---------------|---------------|---------------|
|---------------|---------------|---------------|---------------|
|-2---2---2---1-|-0-------------|---------0---1-|-2---0-1-2-----|
|---------------|---------------|-0---4---------|---------------|

Grille Break

  E              A              E              E
|---------------|---------------|---------------|---------------|
|---------------|---------------|---------------|---------------|
|---------------|---------------|---------------|---------------|
|-0-------------|-0-------------|-0-------0-----|-0---0---0---0-|

  A              A              E              E
|---------0---2-|-----2---0-----|---------------|---------------|
|-----2---------|-------------2-|---------0---2-|-2---0---------|
|-0-------------|-0-------------|-----2---------|---------2-----|
|---------------|---------------|-0-------------|-------------0-|

  B              A              E              B
|---------------|---------------|---------------|---------------|
|---------------|---------------|---------------|---------------|
|-2---2---2---1-|-0-------------|---------0---1-|-2-----3-2-----|
|---------------|---------------|-0---4---------|---------------|

Voilà, à partir de cette structure, on va pouvoir s’amuser à faire des combinaisons avec notre boite.

Bon jeu,
Ludovic

A propos Ludovic

Je m’appelle Ludovic et j’ai décidé de commencer à jouer de la basse il n’y a pas très longtemps. C’était un rêve d’adolescent que je me permet de poursuivre aujourd’hui. Il n’est jamais trop tard pour commencer :-).

Pour marque-pages : Permaliens.

Merci de laisser un petit commentaire