Riff – Thème de Mission Impossible

Pour recommencer après une longue période loin de ma basse (snif !), j’ai pensé à Mission Impossible. Un riff facile pour se remettre en selle.

|--------------|--------------|
|--------------|--------------|
|----------1-3-|--------------|
|-3---3--------|-3---3----1-2-|

Et on répète. Puis, pour rajouter un peu de peps :

|--------------|--------------|  x2
|--------------|--------------|
|----------1-3-|--------------|
|-3-3-3-3------|-3-3-3-3--1-2-|
|--------------|--------------|  x2
|----------1-3-|--------------|
|-3-3-3-3------|-3-3-3-3--1-2-|
|--------------|--------------|

Bon jeu,
Ludovic

A propos Ludovic

Je m’appelle Ludovic et j’ai décidé de commencer à jouer de la basse il n’y a pas très longtemps. C’était un rêve d’adolescent que je me permet de poursuivre aujourd’hui. Il n’est jamais trop tard pour commencer :-).

Pour marque-pages : Permaliens.

Une réponse à Riff – Thème de Mission Impossible

  1. De Almeida dit :

    Hummmmmmmmm 😊 je vais essayer aussi tiens….Je vous dirai comment cela c’est passé pour moi ☺.

Merci de laisser un petit commentaire