Riff – Message In A Bottle (Police – Sting) part 3 – Refrain 2/2

On a découpé la chanson « Message In A Bottle » en trois parties :
1 – Intro, Couplet et la Fin
2 – Première moitié du refrain
3 – Seconde moitié du refrain

Voici la partie 3 correspondant à la seconde moitié du refrain.
Il y a 8 mesures. Le petit s pour silence – on bloque la corde.

|-----------------|-----------------|-----------------|-----------------|
|-----------------|-----------------|-----------------|-----------------|
|-4---4---4-----4-|-0-0---0---------|-4---4---4-----4-|-0-0---0---------|
|-----------------|---------4---s-4-|-----------------|---------4---s-4-|
  1 + 2 + 3 + 4 +   1 + 2 + 3 + 4 +   1 + 2 + 3 + 4 +   1 + 2 + 3 + 4 +   

|-----------------|-----------------|-----------------|-----------------|
|-----------------|-----------------|-----------------|-----------------|
|-4---4---4-----4-|-0-0---0---------|-----------------|-----------------|
|-----------------|---------4-------|-2---------------|-----------------|

Bon jeu,
Ludovic

A propos Ludovic

Je m’appelle Ludovic et j’ai décidé de commencer à jouer de la basse il n’y a pas très longtemps. C’était un rêve d’adolescent que je me permet de poursuivre aujourd’hui. Il n’est jamais trop tard pour commencer :-).
Taggé .Lien pour marque-pages : Permaliens.

2 réponses à Riff – Message In A Bottle (Police – Sting) part 3 – Refrain 2/2

  1. Ping :Riff – Message In A Bottle (Police – Sting) part 1 – Intro, Couplet et Fin - Apprendre à jouer de la Basse

  2. Ping :Riff – Message In A Bottle (Police – Sting) part 2 – Refrain 1/2 - Apprendre à jouer de la Basse

Merci de laisser un petit commentaire