Riff – Message In A Bottle (Police – Sting) part 2 – Refrain 1/2

On a découpé la chanson « Message In A Bottle » en trois parties :
1 – Intro, Couplet et la Fin
2 – Première moitié du refrain
3 – Seconde moitié du refrain

Voici la partie 2 correspondant à la première partie du refrain.
Il y a 10 mesures.

|-----------------|-----------------|-----------------|-----------------|
|-----------------|-0-0-0-2---2-2-2-|-----------------|-0-0-0-2---2-2-2-|
|-0-0-0-0-0-0-0-0-|-----------------|-0-0-0-0-0-0-0-0-|-----------------|
|-----------------|-----------------|-----------------|-----------------|
  1 + 2 + 3 + 4 +   1 + 2 + 3 + 4 +   1 + 2 + 3 + 4 +   1 + 2 + 3 + 4 +   

|---------------2-|---------------2-|---------------2-|---------------2-|
|-4-4-4-4-4-4-4---|-0-0-0-0-0-0-0---|-4-4-4-4-4-4-4---|-0-0-0-0-0-0-0---|
|-----------------|-----------------|-----------------|-----------------|
|-----------------|-----------------|-----------------|-----------------|

|---------------2-|-------------2---|
|-4-4-4-4-4-4-4---|-0-0-0-0-0-0-----|
|-----------------|-----------------|
|-----------------|-----------------|

Attention à la dernière mesure où la dernière note est jouée sur le temps 4.

Bon jeu,
Ludovic

A propos Ludovic

Je m’appelle Ludovic et j’ai décidé de commencer à jouer de la basse il n’y a pas très longtemps. C’était un rêve d’adolescent que je me permet de poursuivre aujourd’hui. Il n’est jamais trop tard pour commencer :-).
Taggé .Lien pour marque-pages : Permaliens.