3ème Exo Do Majeur

Pour 3ème exercice, on va jouer tous les intervalles à partir de notre fondamentale, donc ici le Do 😉

Au début sans métronome puis une fois le doigté appris, on peut utiliser le click du métronome pour être bien régulier de 60 à 70 au début.

Intervalles : Exo (A)
|------------------|------------------|------2---------4-|------5-----------|
|----------------2-|------3--------5--|------------------|------------------|
|-3----5----3------|-3---------3------|-3---------3------|-3---------3------|
|------------------|------------------|------------------|------------------|
  Do   Ré   Do   Mi  Do   Fa   Do  Sol  Do   La   Do   Si  Do   Do   Do ---  

Intervalles : Exo (B)
|-5---------4------|-2----------------|------------------|------------------|
|------------------|-----------5------|-3---------2------|------------------|
|------3---------3-|------3---------3-|------3---------3-|-5----3----3------|
|------------------|------------------|------------------|------------------|
  Do   Do   Si   Do  La   Do   Sol  Do  Fa   Do   Mi   Do  Ré   Do   Do ---  

Bon jeu et essayez de chanter les notes (au moins mentalement).

A propos Ludovic

Je m’appelle Ludovic et j’ai décidé de commencer à jouer de la basse il n’y a pas très longtemps. C’était un rêve d’adolescent que je me permet de poursuivre aujourd’hui. Il n’est jamais trop tard pour commencer :-).

Pour marque-pages : Permaliens.

3 réponses à 3ème Exo Do Majeur

  1. isa dit :

    Excusez moi, mais je crois qu’il y a quelques notes qui ne sont pas bonnes sur le 3ème exo Do Majeur…
    Mais peut-être, je me trompe, je suis novice…

  2. Rodin ludovic dit :

    Expliquez en montant et descendants ?

Merci de laisser un petit commentaire