2ème Exo Do Majeur

Pour le deuxième exercice, on va sauter une note pour revenir. Comme pour l’exercice précédent, notre oreille est habitée et on trouve vite nos marques.

Au début sans métronome puis une fois le doigté appris, on peut utiliser le click du métronome pour être bien régulier de 60 à 70 au début.

En montant !
|------------------------------------2---------4----2----5-|
|------2---------3----2----5----3---------5----------------|
|-3---------5----------------------------------------------|
|----------------------------------------------------------|
  Do   Mi   Ré   Fa   Mi   Sol  Fa   La   Sol  Si   La   Do

En descendant !
|-5----2----4---------2---------------------------------------------------|
|----------------5---------3----5----2----3---------2---------------------|
|----------------------------------------------5---------3----5----2----3-|
|-------------------------------------------------------------------------|
  Do   La   Si   Sol  La   Fa   Sol  Mi   Fa   Ré   Mi   Do   Ré   Si   Do
Bon jeu et essayez de chanter les notes (au moins mentalement).

A propos Ludovic

Je m’appelle Ludovic et j’ai décidé de commencer à jouer de la basse il n’y a pas très longtemps. C’était un rêve d’adolescent que je me permet de poursuivre aujourd’hui. Il n’est jamais trop tard pour commencer :-).

Pour marque-pages : Permaliens.

4 réponses à 2ème Exo Do Majeur

  1. Ludovic Rodin dit :

    Je suis debutant, j ai acheté une basse pour jouer mais pas trop le temps j avais commencé à prendre les bases et apprendre les notes avec vous. Peux t on recommencer le do re mi fa ect.

  2. Rodin ludovic dit :

    Expliquez en montant et descendants ?

Merci de laisser un petit commentaire