Chanson – Proud Mary (Creedence Clearwater Revival CCR)

Voici un classique de Creedence Clearwater Revival (ou CCR en bref), une chanson écrite par John Fogerty : “Proud Mary”.

Repris avec succès par Ike & Tina Tuner, c’est la version originale que nous allons voir.

L’intro est, aussi, la partie la plus reconnaissable. Elle est reprise au refrain 2 et au refrain 3.
La chanson est très entrainante, donne envie de danser et de chanter “Rollin’, rollin’, rollin’ on the river”!.

En plus de pouvoir jouer avec la vidéo, voici une cover sans la partie de basse !

Du bonheur à jouer ;-).

Bon jeu,
Ludovic

Les Paroles pour s’aider :

Left a good job in the city
Workin’ for the man ev’ry night and day
And I never lost one minute of sleepin’
Worryin’ ’bout the way things might have been

Big wheel keep on turnin’
Proud Mary keep on burnin’
Rollin’, rollin’, rollin’ on the river

Cleaned a lot of plates in Memphis
Pumped a lot of pane down in New Orleans
But I never saw the good side of the city
‘Til I hitched a ride on a river boat queen

Big wheel keep on turnin’
Proud Mary keep on burnin’
Rollin’, rollin’, rollin’ on the river

Rollin’, rollin’, rollin’ on the river

If you come down to the river
Bet you gonna find some people who live
You don’t have to worry ’cause you have no money
People on the river are happy to give

Big wheel keep on turnin’
Proud Mary keep on burnin’
Rollin’, rollin’, rollin’ on the river
Rollin’, rollin’, rollin’ on the river
Rollin’, rollin’, rollin’ on the river
Rollin’, rollin’, rollin’ on the river

Intro
|-----------------|-----------------|-----------------|-----------------|
|-----------------|-----------------|-----------5---3-|---3-3---3-------|
|-3-3-------------|-3-3-------------|-3-3-------------|-------5-----5---|
|-------5---5-5---|-------5---5-5---|-------5---------|-----------------|
  1 + 2 + 3 + 4 +   1 + 2 + 3 + 4 +   1 + 2 + 3 + 4 +   1 + 2 + 3 + 4 +   

                                      
|-----------------|-----------------|
|-----------------|-----------------|
|-5-----5-5-5-----|-5-----5-5-5-----|
|-----------------|---------------5-|
  1 + 2 + 3 + 4 +   1 + 2 + 3 + 4 +

Partie 1
|-----------------|-----------------|-----------------|-----------------|
|-----------------|-----------------|-----------------|-----------------|
|-5-----5-5-5-----|-5-----5-5-5-----|-5-----5-5-5-----|-5-----5-5-5-----|
|-----------------|-----------------|-----------------|---------------5-|
  1 + 2 + 3 + 4 +   1 + 2 + 3 + 4 +   1 + 2 + 3 + 4 +   1 + 2 + 3 + 4 +   
                                                       
|-----------------|-----------------|-----------------|-----------------|
|-----------------|-----------------|-----------------|-------4---5---6-|
|-5-----5-5-5-----|-5-----5-5-5-----|-5-----5-5-5-----|-5-5-------------|
|-----------------|-----------------|-----------------|-----------------|
  1 + 2 + 3 + 4 +   1 + 2 + 3 + 4 +   1 + 2 + 3 + 4 +   1 + 2 + 3 + 4 +   
                         
|-----------------|-----------------|-----------------|-----------------|
|-7-----7---------|-7-----7---------|-9-----9---------|-9-----9---------|
|---------7-----7-|---------7-----7-|---------9-9-----|---------9-9---9-|
|-----------------|-----------------|-----------------|-----------------|
  1 + 2 + 3 + 4 +   1 + 2 + 3 + 4 +   1 + 2 + 3 + 4 +   1 + 2 + 3 + 4 +   

Refrain 1
|-----------------|-----------------|-----------------|-----------------|
|-----------------|-----------------|-----------------|-------4---5---7-|
|-5-----5-5-5-----|-5-----5-5-5-----|-5-----5-5-5-----|-5-5-------------|
|-----------------|-----------------|-----------------|-----------------|
  1 + 2 + 3 + 4 +   1 + 2 + 3 + 4 +   1 + 2 + 3 + 4 +   1 + 2 + 3 + 4 +   

Partie 2 idem partie 1

Refrain 2
|-----------------|-----------------|-----------------|-----------------|
|-----------------|-----------------|-----------------|-----------------|
|-5-----5-5-5-----|-5-----5-5-5-----|-5-----5-5-5-----|-5-----5-5-5-----|
|-----------------|-----------------|-----------------|-----------------|
  1 + 2 + 3 + 4 +   1 + 2 + 3 + 4 +   1 + 2 + 3 + 4 +   1 + 2 + 3 + 4 +  

+ Intro

Solo Guitare
|-----------------|-----------------|-----------------|-----------------|
|-----------------|-----------------|-----------------|-----------------|
|-5-----5-5-5-----|-5-----5-5-5-----|-5-----5-5-5-----|-5-----5-5-5-----|
|---------------5-|-----------------|-----------------|---------------5-|
  1 + 2 + 3 + 4 +   1 + 2 + 3 + 4 +   1 + 2 + 3 + 4 +   1 + 2 + 3 + 4 +   
  
|-----------------|-----------------|-----------------|-----------------|
|-----------------|-----------------|-----------------|-------4---5---6-|
|-5-----5-5-5-----|-5-----5-5-5-----|-5-----5-5-5-----|-5-5-------------|
|-----------------|---------------5-|-----------------|-----------------|
  1 + 2 + 3 + 4 +   1 + 2 + 3 + 4 +   1 + 2 + 3 + 4 +   1 + 2 + 3 + 4 +   
             
|-----------------|-----------------|-----------------|---------11-------|
|-7-----7---------|-7-7---7-------7-|-9-----9---------|-----9-9----9---9-|
|---------7-----7-|---------7---7---|---------9-9---9-|---9----------9---|
|-----------------|-----------5-----|-----------------|-7----------------|
  1 + 2 + 3 + 4 +   1 + 2 + 3 + 4 +   1 + 2 + 3 + 4 +   1 + 2 + 3- + 4 +   

Refrain 3 idem refrain 1 + Intro 

Partie 3
|-----------------|-----------------|-----------------|-----------------|
|-----------------|-----------------|-----------------|-----------------|
|-5-----5-5-5-----|-5-----5-5-5-----|-5-----5-5-5-----|-5-----5-5-5-----|
|-----------------|-----------------|-----------------|---------------5-|
  1 + 2 + 3 + 4 +   1 + 2 + 3 + 4 +   1 + 2 + 3 + 4 +   1 + 2 + 3 + 4 +   
  
|-----------------|-----------------|-----------------|-----------------|
|-----------------|-----------------|-----------------|-------4---5---6-|
|-5-----5-5-5-----|-5-----5-5-5-----|-5-----5-5-5-----|-5-5-------------|
|-----------------|-----------------|-----------------|-----------------|
  1 + 2 + 3 + 4 +   1 + 2 + 3 + 4 +   1 + 2 + 3 + 4 +   1 + 2 + 3 + 4 +   
    
|-----------------|-----------------|-----------------|-----------------|
|-7-----7---------|-7-----7---7---7-/-9-----9---------|-9-------9---9---|
|---------7-----7-|---------7---7---|---------9-9---9-|---9---9---9-----|
|-----------------|-----------------|-----------------|-----------------|
  1 + 2 + 3 + 4 +   1 + 2 + 3 + 4 +   1 + 2 + 3 + 4 +   1 + 2 + 3 + 4 +   

Refrain 4 idem refrain 1 (x4)
Pour marque-pages : Permaliens.

A propos Ludovic

Je m’appelle Ludovic et j’ai décidé de commencer à jouer de la basse il n’y a pas très longtemps. C’était un rêve d’adolescent que je me permet de poursuivre aujourd’hui. Il n’est jamais trop tard pour commencer :-).

Cet article est interessant ? Quelque chose à rajouter ? Merci de laisser un petit commentaire

Ce site utilise Akismet pour réduire les indésirables. En savoir plus sur comment les données de vos commentaires sont utilisées.