Riff – Joyeux anniversaire – Happy Birthday to You

Voici une chanson à connaitre absolument pour ne pas passer pour un naze (c’est du vécu) car on nous demande toujours de jouer un petit morceau dans les moments les plus incongrus. Et c »est toujours l’anniversaire de quelqu’un !

Bon aller on y va ! (version en Do – facilement transposable).

|--------------|--------------|--------------|
|--------------|--------------|--------------|
|--------------|----------3---|-2------------|
|----------3-3-|-5---3--------|----------3-3-|
|--------------|--------------|--------------|
|--------------|--------------|-5---2--------|
|----------5---|-3------------|----------3---|
|-5---3--------|----------3-3-|--------------|
|--------------|--------------|--------------|
|----------3-3-|-2------------|--------------|
|-2------------|-----3----5---|-3------------|
|-----5--------|--------------|--------------|

A propos Ludovic

Je m’appelle Ludovic et j’ai décidé de commencer à jouer de la basse il n’y a pas très longtemps. C’était un rêve d’adolescent que je me permet de poursuivre aujourd’hui. Il n’est jamais trop tard pour commencer :-).
Taggé .Lien pour marque-pages : Permaliens.

Merci de laisser un petit commentaire