Riff – Beat It

Le riff incontournable de Beat It de Michael Jackson.

Si vous êtes pas super doué en rythmique comme moi alors, le travailler lentement au métronome.

J’ai rajouté un peu d’info sur le placement de début des notes.

|-----------------|-----------------|-----------------|-----------------|
|-----------------|-------5-2-----4-|---2-------------|-------5-2-----4-|
|-----------------|-----2-----------|-----5---5-------|-----2-----------|
|---------------0-|---3-------------|---------------0-|---3-------------|
| 1 & 2 & 3 & 4 & | 1 & 2 & 3 & 4 & | 1 & 2 & 3 & 4 & | 1 & 2 & 3 & 4 & |
|-----------------|-----------------|-----------------|-----------------|
|---2-------------|-------5-2-----4-|---2-------------|-------5-2-----4-|
|-----5-----------|-----2-----------|-----5---5-------|-----2-----------|
|---------------0-|---3-------------|---------------0-|---3-------------|
| 1 & 2 & 3 & 4 & | 1 & 2 & 3 & 4 & | 1 & 2 & 3 & 4 & | 1 & 2 & 3 & 4 & |
|-----------------|-----------------|-----------------|-----------------|
|---2-------------|-----------------|-----------------|-----------------|
|-----5-----------|---7-7---7-----5-|-5---5-----------|---7-7---7-----5-|
|-----------------|-----------------|-----------------|-----------------|
| 1 & 2 & 3 & 4 & | 1 & 2 & 3 & 4 & | 1 & 2 & 3 & 4 & | 1 & 2 & 3 & 4 & |
|-----------------|-----------------|-----------------|-----------------|
|-----------------|-----------------|-----------------|-----------------|
|-5---5-----------|---3-3---3-----5-|-5---5-----------|---7-7---7-----5-|
|-----------------|-----------------|-----------------|-----------------|
| 1 & 2 & 3 & 4 & | 1 & 2 & 3 & 4 & | 1 & 2 & 3 & 4 & | 1 & 2 & 3 & 4 & |
|-----------------|
|-----------------|
|-5---5-----------|
|-----------------|

 

A propos Ludovic

Je m’appelle Ludovic et j’ai décidé de commencer à jouer de la basse il n’y a pas très longtemps. C’était un rêve d’adolescent que je me permet de poursuivre aujourd’hui. Il n’est jamais trop tard pour commencer :-).
Taggé .Lien pour marque-pages : Permaliens.

Merci de laisser un petit commentaire